Make your own free website on Tripod.com
I'LL NEVER TEAR YOU APART
By Martin Tielli
On the album: We Didn't Even Suspect That He Was The Poppy Salesman
Transcribed by: Fabian Mucin

Capo 3rd fret!!
(Open notes will be written as 3)
(Chords will be played  as the same structure)
(Harmonics showed in brackets,i.e  <15>.)

Opening riff: Harmonics are played by touching string with i and pluck with p. (pima)
                      Then plucking open string with a.

Capo 3rd fret

Riff #1
       The   tiger ...
-------------------------------------------3----------3----------------------------------------
------------------------------3--------------------------------------3-------------------------
---------------3----------------------------<15>--------------------------------3--------------
-----------------------------------<15>-------------------<15>---------------------------------
-------------------------<15>-------------------------------------------<15>-------------------
------<15>----------------------------------------------------------------------------<15>-----


       G                      D
But I'll never tear you apart

             Am                       C
With a love so pure, our knees will shake

w/ riff#1
And tremble

W/ riff#1

There were tracks in the silt where the stream becomes still

          G                        D
…but I'll never rip out your heart

                         Am                       C
You're such a gentle beast oh you never got tough

        Em
Like I got tough…

        Em
The faces in the window oh they're just my friends

    G                        D
I promise I wont let them in

              Am
Oh they live in the corn

                    C
Where they die and they're born

                  Em
Where the blades go around

Am
Churn up the ground

      Em         G           C
To open the over toiled soil

Am
Oooooooooo baby

C
Oooooooooo baby

Em
Oooooooooo babe

W/ riff
Slashed cross the back

Your spine almost snapped…(w/ riff #2)

Riff #2

--------6p5p3----------------------------------------------------------------------------------
-----------------------------6p4p3-------------------------------------------------------------
------<15>-------------------------------------5p4p3-------------------------------------------
---------------------------<15>----------------------------------------------------------------
-----------------------------------------------<15>--------------------------------------------
----------------------------------------------------------------------------------<15>---------

ending only

   G                            D
I put three bullets in its face

           Am
And I hung it from a tree

             C
For the other ones to see

          Em
What happens if you mess with me