Make your own free website on Tripod.com
The Bridge: Martin Tielli (another work in progress!)
 Transcribed by: Fabian Mucin; mucin@msn.com
 Tuning is in D suspended!!
 E down to D
 B down to A
 G same h= hammer on
 D same p= pull off
 A same
 E down to D
 Finger pickers only please!!  

(triplet finger picking)
   --7------------7-------------7-------------7-------------7------------7----------7--------------
   ---7-h-8--------7-h-8---------7-h-8---------7-h-8---------7-h-8--------7-h-8--------------------
   ----7------------7-------------7-------------7-------------7------------7---------------0-------
   -------0------------0-------------0-------------0-------------0------------0--------------------
   ------------------------------------------------------------------------------------------------
   --0------------0-------------0-------------0-------------0------------0-------------------------


   --9----------9-----------9----------9----------9-----------9----------10------------------------
   ----8----------8-----------8----------8----------8------------8---------------------------------
   ------------------------------------------------------------------------------------------------
   ------10---------10----------10---------10---------10-------------------------------------------
   ------------------------------------------------------------------------------------------------
   ------------------------------------------------------------------------------------------------



(palm mute)........................... slide
   --10--------------------------------------------------------------------------------------------
   ------------------------------------------------------------------------------------------------
   --7-p-0--------------7-p-0-------------------------5-\------------------------------------------
   -----------5-h-6----------------6-h-7--------5--------------------------------------------------
   ---------------------5--------------------------------------------------------------------------
   --------------------------------5------------5-----5-\------------------------------------------

   sl.
   ------------------------------------------------------------------------------------------------
   ------------------------------------------------------------------------------------------------
   ------------------------------------------------------------------------------------------------
   ------------------------------------------------------------------------------------------------
   -----2-/-5----5---5-------5---3-/-5----5-----5---5----------------------------------------------
   --0--------------------0------------------0----------0------------------------------------------


   ------------------------------------------------------------------------------------------------
   ------------------------------------------------------------------------------------------------
   ------------------------------------------------------------------------------------------------
   ------------------------------------------------------------------------------------------------
   --5--3-------3-/-5----5---5---------5----3-/-5-----7-------3------------------------------------
   --------0-----------------------0-----------------------0---------------------------------------


   --7---------------------------------------------------------------------------------------------
   ---7-h-8-------------------------7-h-8-p-7------------------7----------------5----5-------------
   ---------7----------------------------------5-------5-h-7------7----5-h-7----7----7-------------
   ----------------0-----0------0------------------7----------------------------7----7-------------
   ------------------------------------------------------------------------------------------------
   --0----------0------0-----0---------------------------------------------------------------------