Make your own free website on Tripod.com



*********---------TAKE ME IN YOUR HAND---------***************


this is how i play it, totally inaccurate.


in case you didnt know chords:

(cadd9) - [x32030]
(csus2) - [x32000]
(Am7)   - [x02010]
(F)     - [x33211]

* means palm mute rake kinda thinger.

Intro:
 
  D U D U D U D U D U D U D U D
 (D)                         (G)
  *   *   *   *   *   *   *
|-----------------------------3--|
|-3-3-3-3-3-3-3-3-3-3-3-3-3-3-3--|
|-2-2-2-2-2-2-2-2-2-2-2-2-2-2-0--|
|-0---0---0---0---0---0---0---0--|
|-0---0---0---0---0---0---0---2--|
|-----------------------------3--|


(C)                  (Cadd9) (C) (Csus2) (c)
Take me in your hand

this is sort of the rythmm i play...

  D D U D U D U U D U D U D U D
    *       *     *   *   *
|-0---0-------0-0---0---0---0-0--------|
|-1---1---1---1-1---3---1---0-1--------|
|-0-0-0-0-0-0-0-0-0-0-0-0-0-0-0--------|
|-2-2---2---2-----2-2-2---2---2--------|
|-3-3---3---3-----3---3---3------------|
|-x------------------------------------|

                         (Am)   [Am7]
And put me back into the nest.

                            (F) {random F picking}
Make me feel like a little bird.

(your picking could be something like this:)

|-1-1-------1-1--1-|
|-1--1-----1---2-1-|
|-2---2---2------2-|
|-3----3-3-------3-|
|-3-----3--------3-|
|-x--------------x-|

		     (Dmin)
'Cause everything I hear

                 (F)  
And everything I see 

         (C)
makes me squeak.

fill: (for line makes me squeak)

 ma a a akes  me  squeak
|0--1p0------------0--|
|-------3-----1----1--|
|------------------0--|
|------------------2--|
|------------------3--|
|------------------x--|


verse 2: (same thing)

Take me in your hand

And squeeze me hard until I pop.

Make me feel like a little girl.

As wicked as a bee.

Much happier than me.

Make me feel like a little girl.


another fun fill for after "nest":

|--------------------------------|
|--------------------------------|
|--------------------------------|
|--------------------------------|
|--------0-3-0h3-----------------|
|--0-2s3---------3---------------|

if you have any problems email me...
best to listen to the song while figuring it out.

thats the best i could tab it...

oh well.

enjoy life.