Make your own free website on Tripod.com
Rheostatics - Weiners and Beans
 
 
Dave is in standard tuning, and martins is in drop D.
 
 
 
dave plays this... i think throughout the whole song.
 
(this part has that train sound. when you slide up, use lots of upstrokes,
and play mostly the bottom 4 strings to give it that higher pitch.)
 
DAVE
---- 
    G           D(something)
 
e|--3-3-3-3-3--/9-9-9-9-9-----|
B|--3-3-3-3-3--/9-9-9-9-9-----|
G|--0-0-0-0-0---0-0-0-0-0-----|
D|--0-0-0-0-0---0-0-0-0-0-----|
A|--2-2-2-2-2--/8-8-8-8-8-----|
E|--3-3-3-3-3--/9-9-9-9-9-/---|
    
    
MARTIN
------
throw in some vibrato's, blah blah. you know the drill.
 
 
( ) - sometimes he plays
*PH*- pinch harmonic
*QB - quarter bend
 
Riff 1
 
e|---------------------------|
B|---------------------------|
G|---------------------------|
D|-4-4-4-5---0--0--0---------|
A|-------------------3-2-0---|
D|-------------------------5-|
 
riff 2
 
e|--------------------------------------------------
B|--------------------------------------------------
G|--------------------------------------------------
D|----------------------0-2-0-----------------------
A|-----0-2-5--------0-2------------0-2-5---2-0------
D|-0-5----------0-5--------------5-------------5-0--
 
 
riff 3
        *PH*          *QB
e|------(15)----------------------------------------------|
B|-/17-15-------------(15)--------------------------------|
G|---------14-16-17-16----14-16-17-16--12----14-12--------|
D|-------------------------------------------------14-12--|
A|--------------------------------------------------------|
D|--------------------------------------------------------|
 
for you bass players, i think tim plays the first and second riffs. 
but, i could be wrong.
 
anyways... thats pretty much it.
 
any questions or comments, email me at greenrabbi@shaw.ca.
Enjoy!